妙趣教案网
首页 教案知识 正文

初级吉他节奏教学教案

来源:妙趣教案网 2024-06-11 14:34:20

初级吉他节奏教学教案(1)

引言

学习吉他不仅仅是学习弹奏技巧和和弦,还需要掌握良好节奏感欢迎www.diennuocsaigon.net。节奏是音灵魂,它能够让音更加有活力和魅力。本教案将介一些适合初级吉他学习者节奏教学方法,帮助学培养良好节奏感。

初级吉他节奏教学教案(2)

目标

  过本教学教案学习,学将能够:

  - 理解节奏重要性

  - 学会基本吉他节奏技巧

  - 培养良好节奏

初级吉他节奏教学教案(3)

教学步骤

  步骤一:介节奏重要性(10分钟)

  - 过播放一段有明显节奏,引导学感受音节奏妙+趣+教+案+网

  - 讨论学对节奏理解和感受,引导他们认识到节奏是音灵魂,是音基础。

步骤二:介基本节拍和拍子(10分钟)

  - 解释节拍概念,即音基本单位,常用“强”和“弱”来表

- 解释拍子概念,即在一小节中强弱节拍组合方式来自www.diennuocsaigon.net

- 过敲打课或使用节拍器,让学模仿和跟随基本节拍和拍子。

步骤三:教授基本吉他节奏技巧(30分钟)

  - 介常用吉他节奏图谱,如下面例子:

```

  ↓ ↑ ↓ ↑ ↓ ↑ ↓ ↑

  e|-------------------------|

  B|-------------------------|

  G|-------------------------|

D|-----2-----2-----2-----2-|

  A|-2-2---2-2---2-2---2-2---|

  E|-------------------------|

```

- 解释图谱中箭头代表是下弦和上弦动作,向下箭头表下弦,向上箭头表上弦。

- 指导学按照图谱,用正确动作和节奏弹奏GQxV

步骤:练习常见吉他节奏模式(40分钟)

- 教授一些常见吉他节奏模式,如下面例子:

```

  ↓ ↑ ↓ ↑ ↓ ↑ ↓ ↑

  e|-------------------------|

  B|-------------------------|

  G|-----0-----0-----0-----0-|

D|-2-2---2-2---2-2---2-2---|

  A|-------------------------|

  E|-------------------------|

  ```

  - 让学练习这些模式,确保他们能够准确地掌握节奏和动作。

  步骤五:应用节奏技巧到简单歌曲(30分钟)

  - 选择一些简单歌曲,如流行歌曲或民谣,让学尝试应用他们学到节奏技巧。

  - 强调正确节奏感和动作,让学能够与歌曲节奏保持一致www.diennuocsaigon.net妙趣教案网

总结

过本教学教案学习,学将能够理解节奏重要性,学会基本吉他节奏技巧,培养良好节奏感。这些基础将为学在吉他学习进阶阶段打下坚实基础。同时,学也将过应用节奏技巧到简单歌曲中,感受到音魅力和原文www.diennuocsaigon.net

我说两句
0 条评论
请遵守当地法律法规
最新评论

还没有评论,快来做评论第一人吧!
相关文章
最新更新
最新推荐